Grunnleggende jazzakkorder for gitar

I jazz er det vanlig å dele inn akkordene i tre typer: Dur-akkorder, moll-akkorder og dominante akkorderm, og tenke at alle akkorder av en type går om hverandre.

La oss teste det ut. En progresjon som går igjen jazz er «ii-V-I» eller «2-5-1» - dvs. i G-dur blir det følgende akkorder: Dm7-G7-Gmaj7.

Påstanden er at alle akkordene i hver type kan brukes om hverandre. Du kan da plukke en hvilken som helst fra hver type og spille: Dm7-G7-Gmaj7. Sjekk ut:

Dur-akkorder sett fra et jazzens perpektiv er akkorder som ikke har liten ters (b3) og ikke liten septim (b7). Dvs en sus4-akkord eller til og med en forstørret durtreklang kan fungere som en dur-akkord.

  • C (durtreklang) - c-e-g
  • C5 - kvintakkord - c-g
  • Cb5 - c-e-gb
  • Cb5 - c-e-g#
  • C2, Cadd2, Cadd9 - durtreklang + 9 = c-e-g-d
  • Csus4, Csus, C4 - ters erstattet av kvart - c-f-g
  • C6, durtreklang + 6 - c-e-g-a
  • Cmaj7, Cma7, C med gjennomstrøket 7 eller delta-tegn fra det greske alfabetet), Cmaj9, Cma9 osv.
  • C69, C6/9, CM69. Durtreklang + 6 + 9 = c-e-(g)-a-d. Kvinten kan sløyfet (x-3-2-2-3-x) eller være med (x-3-2-2-3-3)

Mollakorder er aller akkorder som har en liten ters (b3):

  • Cm - c-eb-g
  • Cm(add9) - c-eb-g-d
  • Cmb5 - c-eb-gb
  • Cm#5 - c-eb-g#
  • Cm6 - c-eb-g-a
  • Cm7#5 - c-eb-g#-bb
  • Cm9 - c-eb-g-bb-d. Kvinten eller grunntonen kan sløyfes
  • Cm11 - c-eb-g-bb-f.
  • CmMaj7 - c-eb-g-b
  • CmMaj7b5 = CmMaj#11 - c-eb-gb-b
  • Cm7#11 - c-eb-bb-f#

Dominantakkorder er akkorder som alltid har en stor ters og liten septim. Det karakteristiske for disse akkordene er at de har tritonus-avstand mellom tersen (3) og septimen (b7):

  • C7
  • C7b5
  • C7#5 = C7+ = C7aug
  • C7#9
  • C7b9
  • C7#5b9
  • C7b5#9
  • C7b5b9
  • C9b5 = C9#11
  • C13b5
  • C13b9
  • C13#9
  • C7sus = C7sus4, besifres ofte som C11
  • C9sus = C9sus4
  • C9
  • C11
  • C13 osv.

Merk at det ikke er uvanlig å droppe kvinten - og til og med grunntonen - for å kunne sette sammen mer sammensatte grep på gitar.

Her er et eksempel på hvordan du kan finne grep for D6 og Dmaj7 fra treklangen D. Ikke alle disse er like spillbare, men…

Eksempel på hvordan du kan bygge sekst- og maj7-grep fra en durtreklang på gitar, ved å flytte kvinten

Shell-akkorder

Shell-akkorden A7, eller rettere sagt A7(no5) sine akkordtoner på gitarhalsen opp til 15. bånd.Den enkleste måten å begynne å bruke jazz-akkorder er å kutte dem ned til sin grunnleggende harmoniske funksjon.

De to tonene i en akkord som bestemmer deres harmoniske funksjon er grovt sagt tersen og septimen.

Øvelse 1: Finn så mange grep du klarer for dominantseptimakkorden A7(no5), altså ved bare å spille grunntone (1), ters (3), og septimen (b7). Her er noen eksempler x0x03x; xxx223, 5x5x3x, 5x56xx; x-12-11-12-x-x…

Øvelse 2: Prøv deretter å legge til andre akkordtoner som dette: 5x543x = A9sus4, 5x532x = A7b9, 5×5322 = A13b9, 5x567x = A13, 5x566x = A7(b13). Den siste kan også skrives A7(#5).

Shell-akkorder finner du ved å abstrahere bort harmonisk sett unødvendige toner - kvinten særlig, men også grunntonen (når bassisten spiller den) og eventuell alterering (b5, #5, b9 og #9) og ekstensjoner (9, 11, #11, 13 osv).

Alterering er akkorder med endret kvint og none: b5, #5, b9, #9

Ekstensjoner er terser som er lagt til akkorder over septimen (eller sekten): 9, b11, 11, #11, b13, 13

Shell-akkorder er altså akkorder der du kan sløyfe kvint, se bort fra alterering og ekstensjoner, ja du kan til og med sløyfe grunntonen, og bare stå igjen med seksten eller septimen og tersen.

Eksempel på blues-progresjon med shell-akkorder med grunntone:

Når du så har fått shell-akkorder inn i fingrene, så kan du da begynne med å øve inn sanger med shell-akkorder.

Og så kan du begynne å legge til akkordtoner (gjerne da etter melodi) som altereringer og ved å lære hvor du finner disse tonene / intervallene fra shell-akkordenes grunntone.

Så hver gang du ser en dur-akkord kan du tenke stor ters og stor septim.

hver gang du ser en mollakord, så kan du tenke liten ters og liten septim: b3-b7

hver gang du ser en dominantakkord, så kan du tenke stor ters og liten septim: 3-b7

Fordelen med shell-akkorder er at du

  1. abstraherer vekk kompleksitet ved å fjerne kvinten, og eventuelt bassen når andre spiller bass.
    1. det gjør det lettere å fingre akkorden
    2. det gjør det harmoniske bildet klarere
      1. dermed er det bra for gehøret

Akkordprogresjon med shell-akkorder

Prøv shell-akkorder med progresjonen I-VI-II-V:

Bilde av 1-2-6-5-progresjon i D-dur med shell-akkorder opp til femtende bånd

Akkordskala med shell-akkorder

(Hvis Flash ikke er installert, s kan du ikke se denne illustrasjonen.)

Jazz-gitaristen Barry Green har noen tips om hvordan du kan bruke slike trestemte akkorder:

For mer avansert stoff om shell-akkorder sjekk Steve Herberman sine leksjoner på mikesmasterclasses.com.

Dominante shell-akkorder

   C7     Db7     D7    Eb7      E7    F7     F#7     Gb7    G7     Ab7     A7     Bb7    B7 
---------------------------------------------------------------------------------------------- 
---------------------------------------------------------------------------------------------- 
---9------10------11-----12------13-----2------3-------4------5------6------7-------8------9-- 
---8------9-------10-----11------12-----1------2-------2------3------4------5-------6------7-- 
---------------------------------------------------------------------------------------------- 
---------------------------------------------------------------------------------------------- 
   C7     Db7     D7    Eb7      E7    F7     F#7     Gb7    G7     Ab7     A7     Bb7    B7 
---------------------------------------------------------------------------------------------- 
---------------------------------------------------------------------------------------------- 
---3-------4-------5-----6-------7------8------9------10-----11------12-----13------14----2--- 
---2-------3-------4-----5-------6------7------8-------9-----10------11-----12------13----1--- 
---------------------------------------------------------------------------------------------- 
---------------------------------------------------------------------------------------------- 

Dominante shell-akkorder med bass

   C7     Db7     D7    Eb7      E7    F7     F#7     Gb7    G7     Ab7     A7     Bb7    B7   
---------------------------------------------------------------------------------------------- 
---------------------------------------------------------------------------------------------- 
---9------10------11-----12------13-----2------3-------4------5------6------7-------8-----9--- 
---8------9-------10-----11------12-----1------2-------2------3------4------5-------6-----7--- 
---------------------------------------------------------------------------------------------- 
---8------9-------10-----11------12-----1------2-------2------3------4------5-------6-----7--- 
   C7     Db7     D7    Eb7      E7    F7     F#7     Gb7    G7     Ab7     A7     Bb7    B7   
---12------13-----14-----3-------4------5------6-------6------7------8------9------10-----11-- 
---11------12-----13-----2-------3------4------5-------5------6------7------8------9------10-- 
---------------------------------------------------------------------------------------------- 
---10------11-----12-----1-------2------3------4-------4------5------6------7------8------9--- 
---------------------------------------------------------------------------------------------- 
---------------------------------------------------------------------------------------------- 
   C7     Db7     D7    Eb7      E7    F7     F#7     Gb7    G7     Ab7     A7     Bb7    B7   
---------------------------------------------------------------------------------------------- 
---------------------------------------------------------------------------------------------- 
---3-------4-------5-----6-------7------8------9------9------10-----11------12-----13-----2--- 
---2-------3-------4-----5-------6------7------8------8-------9-----10------11-----12-----1--- 
---3-------4-------5-----6-------7------8------9------9------10-----11------12-----13-----2--- 
---------------------------------------------------------------------------------------------- 
   C7     Db7     D7    Eb7      E7    F7     F#7     Gb7    G7     Ab7     A7     Bb7    B7   
---------------------------------------------------------------------------------------------- 
---5-------6-------7-----8-------9------10-----11-----11-----12-----13------14-----15-----4--- 
---3-------4-------5-----6-------7------8------9------9------10-----11------12-----13-----2--- 
---------------------------------------------------------------------------------------------- 
---3-------4-------5-----6-------7------8------9------9------10-----11------12-----13-----2--- 
---------------------------------------------------------------------------------------------- 

Forminskede shell-akkorder

Shell av forminskede septim-akkorder - uten bass

   Cdim7  Dbdim7  Ddim7 Ebdim7   Edim7 Fdim7  F#dim7 Gbdim7 Gdim7  Abdim7  Adim7  Bbdim7 Bdim7 
---------------------------------------------------------------------------------------------- 
---------------------------------------------------------------------------------------------- 
---8------9------10------11-----12------13-----2------2------3-------4------5------6------7--- 
---7------8------9-------10-----11------12-----1------1------2-------3------4------5------6--- 
---------------------------------------------------------------------------------------------- 
---------------------------------------------------------------------------------------------- 
   Cdim7  Dbdim7  Ddim7 Ebdim7   Edim7 Fdim7  F#dim7 Gbdim7 Gdim7  Abdim7  Adim7  Bbdim7 Bdim7 
---------------------------------------------------------------------------------------------- 
---------------------------------------------------------------------------------------------- 
---2-------3-------4-------5-----6-------7------8------8------9------10-----11------12----13-- 
---1-------2-------3-------4-----5-------6------7------7------8-------9-----10------11----12-- 
---------------------------------------------------------------------------------------------- 
---------------------------------------------------------------------------------------------- 

Shell av forminskede septim-akkorder - med bass

   Cdim7  Dbdim7  Ddim7 Ebdim7   Edim7 Fdim7  F#dim7 Gbdim7 Gdim7  Abdim7  Adim7  Bbdim7 Bdim7 
---------------------------------------------------------------------------------------------- 
---------------------------------------------------------------------------------------------- 
---8------9------10------11-----12------13-----2------2------3-------4------5------6------7--- 
---7------8------9-------10-----11------12-----1------1------2-------3------4------5------6--- 
---------------------------------------------------------------------------------------------- 
---8------9-------10-----11------12-----1------2-------2------3------4------5------6------7-- 
   Cdim7  Dbdim7  Ddim7 Ebdim7   Edim7 Fdim7  F#dim7 Gbdim7 Gdim7  Abdim7  Adim7  Bbdim7 Bdim7 
---------------------------------------------------------------------------------------------- 
---------------------------------------------------------------------------------------------- 
---2-------3-------4-------5-----6-------7------8------8------9------10-----11------12----13-- 
---1-------2-------3-------4-----5-------6------7------7------8-------9-----10------11----12-- 
---3-------4-------5-------6-----7-------8------9------9------10-----11-----12------13----14-- 
---------------------------------------------------------------------------------------------- 

Suspenderte shell-akkorder -dvs. Sus4-akkorder - uten bass

   C7sus  Db7sus  D7sus Eb7sus   E7sus F7sus  F#7sus  Gb7sus G7sus  Ab7sus  A7sus  Bb7sus B7sus 
---------------------------------------------------------------------------------------------- 
---------------------------------------------------------------------------------------------- 
---10-----11------12-----13------14-----3------4-------4------5------6------7-------8------9-- 
---8------9-------10-----11------12-----1------2-------2------3------4------5-------6------7-- 
---------------------------------------------------------------------------------------------- 
---------------------------------------------------------------------------------------------- 
 C7sus  Db7sus  D7sus Eb7sus   E7sus F7sus  F#7sus  Gb7sus G7sus  Ab7sus  A7sus  Bb7sus B7sus 
---------------------------------------------------------------------------------------------- 
---------------------------------------------------------------------------------------------- 
---3-------4-------5-----6-------7------8------9------10-----11------12-----13------14----2--- 
---3-------4-------5-----6-------7------8------9------10-----11------12-----13------14----2--- 
---------------------------------------------------------------------------------------------- 
---------------------------------------------------------------------------------------------- 

Suspenderte shell-akkorder -dvs. Sus4-akkorder - med bass

   C7sus  Db7sus  D7sus Eb7sus   E7sus F7sus  F#7sus  Gb7sus G7sus  Ab7sus  A7sus  Bb7sus B7sus 
---------------------------------------------------------------------------------------------- 
---------------------------------------------------------------------------------------------- 
---10-----11------12-----13------14-----3------4-------4------5------6------7-------8------9-- 
---8------9-------10-----11------12-----1------2-------2------3------4------5-------6------7-- 
---------------------------------------------------------------------------------------------- 
---8------9-------10-----11------12-----1------2-------2------3------4------5-------6------7-- 
   C7sus  Db7sus  D7sus Eb7sus   E7sus F7sus  F#7sus  Gb7sus G7sus  Ab7sus  A7sus  Bb7sus B7sus 
---------------------------------------------------------------------------------------------- 
---------------------------------------------------------------------------------------------- 
---3-------4-------5-----6-------7------8------9------10-----11------12-----13------14----2--- 
---3-------4-------5-----6-------7------8------9------10-----11------12-----13------14----2--- 
---3-------4-------5-----6-------7------8------9------10-----11------12-----13------14----2--- 
---------------------------------------------------------------------------------------------- 

Shell av moll-akkorder

Mollseptim-akkorder

Cm7 osv. uten bass

   Cm7    Dbm7    Dm7   Ebm7    Em7    Fm7    F#m7    Gbm7   Gm7    Abm7    Am7    Bbm7   Bm7 
---------------------------------------------------------------------------------------------- 
---------------------------------------------------------------------------------------------- 
---8------9-------10-----11------12-----1------2-------2------3------4------5-------6------7-- 
---8------9-------10-----11------12-----1------2-------2------3------4------5-------6------7-- 
---------------------------------------------------------------------------------------------- 
---------------------------------------------------------------------------------------------- 
   Cm7    Dbm7    Dm7   Ebm7    Em7    Fm7    F#m7    Gbm7   Gm7    Abm7    Am7    Bbm7   Bm7 
---------------------------------------------------------------------------------------------- 
---------------------------------------------------------------------------------------------- 
---3-------4-------5-----6-------7------8------9------10-----11------12-----13------14----2--- 
---1-------2-------3-----4-------5------6------7------8------9-------10-----11------12----0--- 
---------------------------------------------------------------------------------------------- 
---------------------------------------------------------------------------------------------- 

Cm7 osv. med bass

   Cm7    Dbm7    Dm7   Ebm7    Em7    Fm7    F#m7    Gbm7   Gm7    Abm7    Am7    Bbm7   Bm7 
---------------------------------------------------------------------------------------------- 
---------------------------------------------------------------------------------------------- 
---8------9-------10-----11------12-----1------2-------2------3------4------5-------6------7-- 
---8------9-------10-----11------12-----1------2-------2------3------4------5-------6------7-- 
---------------------------------------------------------------------------------------------- 
---8------9-------10-----11------12-----1------2-------2------3------4------5-------6------7-- 
  Cm7    Dbm7    Dm7   Ebm7    Em7    Fm7    F#m7    Gbm7   Gm7    Abm7    Am7    Bbm7   Bm7 
---------------------------------------------------------------------------------------------- 
---------------------------------------------------------------------------------------------- 
---3-------4-------5-----6-------7------8------9------10-----11------12-----13------14----2--- 
---1-------2-------3-----4-------5------6------7------8------9-------10-----11------12----0--- 
---3-------4-------5-----6-------7------8------9------10-----11------12-----13------14----2--- 
---------------------------------------------------------------------------------------------- 
Mollsekst-akkorder

Cm6- shell uten bass.

  Cm6   Dbm6    Dm6     Ebm6     Em6    Fm6   F#m6   Gbm6    Gm6    Abm6    Am6   Bbm6   B6 
---------------------------------------------------------------------------------------------- 
---------------------------------------------------------------------------------------------- 
---8------9-------10------11------12------1------2------2------3------4------5-----6-----7---- 
---7------8-------9-------10------11------0------1------1------2------3------4-----5-----6---- 
---------------------------------------------------------------------------------------------- 
---------------------------------------------------------------------------------------------- 
  Cm6   Dbm6    Dm6     Ebm6     Em6    Fm6   F#m6   Gbm6    Gm6     Abm6   Am6   Bbm6   B6 
---------------------------------------------------------------------------------------------- 
---------------------------------------------------------------------------------------------- 
---2------3-------4-------5-------6-------7------8------8------9------10----11-----12----13--- 
---1------2-------3-------4-------5-------6------7------7------8------9-----10-----11----12--- 
---------------------------------------------------------------------------------------------- 
---------------------------------------------------------------------------------------------- 

Cm6 - shell-akkorder med bass

  Cm6   Dbm6    Dm6     Ebm6     Em6    Fm6   F#m6   Gbm6   Gm6     Abm6   Am6   Bbm6   B6 
---------------------------------------------------------------------------------------------- 
---------------------------------------------------------------------------------------------- 
---8-----9-------10------11------12------1------2------2------3------4------5------6-----7---- 
---7-----8-------9-------10------11------0------1------1------2------3------4------5-----6---- 
---------------------------------------------------------------------------------------------- 
---8-----9-------10------11------12------1------2------2------3------4------5------6-----7---- 
  Cm6   Dbm6    Dm6     Ebm6     Em6    Fm6   F#m6   Gbm6   Gm6    Abm6    Am6   Bbm6   B6 
---11------12------13------2------3------4------5------5------6------7------8------9-----10--- 
---10------11------12------1------2------3------4------4------5------6------7------8-----9---- 
---------------------------------------------------------------------------------------------- 
---10------11------12------1------2------3------4------4------5------6------7------8-----9---- 
---------------------------------------------------------------------------------------------- 
---------------------------------------------------------------------------------------------- 
  Cm6   Dbm6    Dm6     Ebm6     Em6    Fm6   F#m6   Gbm6   Gm6    Abm6    Am6   Bbm6   B6 
---------------------------------------------------------------------------------------------- 
---------------------------------------------------------------------------------------------- 
---2------3-------4------5-------6-------7------8------8-----9------10------11-----12----13--- 
---1------2-------3------4-------5-------6------7------7-----8------9-------10-----11----12--- 
---3------4-------5------6-------7-------8------9------9-----10-----11------12-----13----14--- 
---------------------------------------------------------------------------------------------- 
  Cm6   Dbm6    Dm6     Ebm6     Em6    Fm6   F#m6   Gbm6   Gm6    Abm6    Am6   Bbm6   Bm6 
---------------------------------------------------------------------------------------------- 
---4------5------6-------7-------8-------9------10-----10----11-----12------13-----14----3---- 
---2------3------4-------5-------6-------7------8------8-----9------10------11-----12----1---- 
---------------------------------------------------------------------------------------------- 
---3------4------5-------6-------7-------8------9------9-----10-----11------12-----13----2---- 
---------------------------------------------------------------------------------------------- 

Shell av durakkorder

Maj7 shell uten bass.

  Cmaj7 Dbmaj7  Dmaj7   Ebmaj7   Emaj7  Fmaj7 F#maj7 Gbmaj7 Gmaj7  Abmaj7  Amaj7 Bbmaj7 Bmaj7 
---------------------------------------------------------------------------------------------- 
---------------------------------------------------------------------------------------------- 
---9-----10------11------12------13------2------3------4------5------6------7------8------9--- 
---9-----10------11------12------13------2------3------4------5------6------7------8------9--- 
---------------------------------------------------------------------------------------------- 
---------------------------------------------------------------------------------------------- 
  Cmaj7 Dbmaj7  Dmaj7   Ebmaj7   Emaj7  Fmaj7 F#maj7 Gbmaj7 Gmaj7  Abmaj7  Amaj7 Bbmaj7 Bmaj7 
---------------------------------------------------------------------------------------------- 
---------------------------------------------------------------------------------------------- 
---4------5-------6------7-------8-------9------10-----11-----12------13-----14-----2-----3--- 
---2------3-------4------5-------6-------7------8------9------10------11-----12-----13----1--- 
---------------------------------------------------------------------------------------------- 
---------------------------------------------------------------------------------------------- 

Maj7 - shell-akkorder med bass

  Cmaj7 Dbmaj7  Dmaj7   Ebmaj7   Emaj7  Fmaj7 F#maj7 Gbmaj7 Gmaj7  Abmaj7  Amaj7 Bbmaj7 Bmaj7 
---------------------------------------------------------------------------------------------- 
---------------------------------------------------------------------------------------------- 
---9-----10------11------12------13------2------3------4------5------6------7------8------9--- 
---9-----10------11------12------13------2------3------4------5------6------7------8------9--- 
---------------------------------------------------------------------------------------------- 
---8-----9-------10------11------12------1------2------2------3------4------5------6------7--- 
  Cmaj7 Dbmaj7  Dmaj7   Ebmaj7   Emaj7  Fmaj7 F#maj7 Gbmaj7 Gmaj7  Abmaj7  Amaj7 Bbmaj7 Bmaj7 
---------------------------------------------------------------------------------------------- 
---------------------------------------------------------------------------------------------- 
---4------5-------6------7-------8-------9------10-----11-----12------13-----14-----2-----3--- 
---2------3-------4------5-------6-------7------8------9------10------11-----12-----13----1--- 
---3------4-------5------6-------7-------8------9------10-----11------12-----13-----14----2--- 
---------------------------------------------------------------------------------------------- 

C6 shell uten bass.

  C6    Db6     D6      Eb6      E6     F6    F#6    Gb6    G6     Ab6     A6    Bb6    B6 
---------------------------------------------------------------------------------------------- 
---------------------------------------------------------------------------------------------- 
---9-----10------11------12------13------2------3------4------5------6------7------8------9--- 
---7-----8-------9-------10------11------0------1------2------3------4------5------6------7--- 
---------------------------------------------------------------------------------------------- 
---------------------------------------------------------------------------------------------- 
  C6    Db6     D6      Eb6      E6     F6    F#6    Gb6    G6     Ab6     A6    Bb6    B6 
---------------------------------------------------------------------------------------------- 
---------------------------------------------------------------------------------------------- 
---2------3-------4------5-------6-------7------8------9------10------11-----12-----13----1--- 
---2------3-------4------5-------6-------7------8------9------10------11-----12-----13----1--- 
---------------------------------------------------------------------------------------------- 
---------------------------------------------------------------------------------------------- 

C6 - shell-akkorder med bass

  C6    Db6     D6      Eb6      E6     F6    F#6    Gb6    G6     Ab6     A6    Bb6    B6 
---------------------------------------------------------------------------------------------- 
---------------------------------------------------------------------------------------------- 
---9-----10------11------12------13------2------3------4------5------6------7------8------9--- 
---7-----8-------9-------10------11------0------1------2------3------4------5------6------7--- 
---------------------------------------------------------------------------------------------- 
---8-----9-------10------11------12------1------2------2------3------4------5------6------7--- 
  C6    Db6     D6      Eb6      E6     F6    F#6    Gb6    G6     Ab6     A6    Bb6    B6 
---------------------------------------------------------------------------------------------- 
---------------------------------------------------------------------------------------------- 
---2------3-------4------5-------6-------7------8------9------10------11-----12-----13----1--- 
---2------3-------4------5-------6-------7------8------9------10------11-----12-----13----1--- 
---3------4-------5------6-------7-------8------9------10-----11------12-----13-----14----2--- 
---------------------------------------------------------------------------------------------- 

Shell-akkorder blir mye brukt av pianister ved komping med venstre hånda. De kan bestå av grunntonen og tersen (intervallene b3 eller 3 fra grunntonen), grunntonen og septimen (b7 eller 7), eller tersen og septimen, eller også grunntonen, tersen og septimen, eller til og med bare en av tonene (b3, 3, 7 eller b7 avhengig av om akkorden er en durakkord, dominantakkord eller mollakkord). En grunn til det er at hvis du spiller i et band og noen spiller bass, så blir det grumsete og uklart lydbilde hvis også den som komper også spiller bass. En annen grunn til det er at kvinten (5) er unødvendig fordi kvinten er grunntonens første og tydeligste overtone.

Legg merke til det i hvordan låte Blue Bossa her kompes i stor grad med shell-akkorder med en, to og tre noter på på venstrehånda, av den australske jazzpianisten og jazzlæreren Doug McKenzie:

Slik spiller du shell-akkorder på gitar:

                      B7 er  
                     Sub5 for 
      Cmi7     F7      F7      Bbmaj7   Bb6   BbmMaj7 
 ----------------------------------------------------- 
 ----------------------------------------------------- 
 -----8-------8-------8--------7---------7------6----- 
 -----8-------7-------7--------7---------5------7----- 
 -------------8--------------------------------------- 
 -----8---------------7--------6---------6------6----- 
 "sub5", "flat5 substitution" er ord for en akkord- 
 substitusjon der en dominant-akkord som befinner seg 
 en forminsket kvint (b5) under eller over en annen  
 dominant akkord, kan erstatte denne akkorden, fordi  
 de har samme funksjon. 
                   Db7 er  
                   sub5 for 
      Dmi7    G7      G7      Cmaj7      C6  CmMaj7 
 ---------------------------------------------------- 
 -----6---------------6--------5---------5-----4----- 
 -----5-------4-------4--------4---------2-----4----- 
 -------------3-------------------------------------- 
 -----5---------------4--------3---------3-----3----- 
 -------------3-------------------------------------- 

Øvelse:

    Cmi7  F7  Bbmaj7  Bb6  Bbmi7  Eb7  Abmaj7 Ab6  Abmi7  Db7  Gbmaj7 
 ---------------------------------------------------------------------- 
 ---------------------------------------------------------------------- 
 ----8----8----7------7------6-----6----5------5-----4-----4----3------ 
 ----8----7----7------5------6-----5----5------3-----4-----3----3------ 
 ---------8------------------------6-----------------------4----------- 
 ----8---------6------6------6----------4------4-----4----------2------ 

Prøv det samme med sub5. Høres harmonisk helt likt ut, ikke sant?

   Cmi7  B7  Bbmaj7  Bb6  Bbmi7   A7  Abmaj7 Ab6  Abmi7   G7  Gbmaj7 
---------------------------------------------------------------------- 
---------------------------------------------------------------------- 
----8----8----7------7------6-----6----5------5-----4-----4----3------ 
----8----7----7------5------6-----5----5------3-----4-----3----3------ 
---------------------------------------------------------------------- 
----8----7----6------6------6-----5----4------4-----4-----3----2------ 

Blue Bossa er en bossa nova jazz-standard.

Prøv deg på Blue Bossa

Dette er de orginale akkordene til jazzstandardlåta Blue Bossa, med dertil hørende altereringer og ekstensjoner:
Cm7   | Cm7 | Fm7  | Fm7       | 
Dm7b5 | G7  | Cm11 | Cm9       | 
Ebm9  | Ab7 | Db6  | Db6       | 
Dm7b5 | G7  | Cm   | Dm7  G7#5 | 
Cm9   | Cm9 | Fm9  | Fm9       | 
Dm7b5 | G7#5| Cm9  | Cm9       | 
Ebm9  | Ab7 | Db6  | Db6       | 
Dm7b5 | G7  | Cm7  | Dm7 G7#5 :| 
Cm9   | Cm9 | 

Hvordan det er skrevet er i jazz temmelig fritt og omtrentlig. Merk fx at Ab7 i tiende takt i Doug McKenzie's partitur er skrevet Ab13, at Db6 er skrevet DbMaj7, at G7#5, er skrevet G7alt, at Cm9 er skrevet Cm7 osv.

Men altså, med shell-akkorder kan dette bildet forenkles slik, og spilles med shell-akkorder

Cm7   | Cm7 | Fm7  | Fm7       | 
Dm7   | G7  | Cm7  | Cm7       | 
Ebm7  | Ab7 | Db6  | Db6       | 
Dm7   | G7  | Cm   | Dm7  G7   | 
Cm7   | Cm7 | Fm7  | Fm7       | 
Dm7   | G7  | Cm7  | Cm7       | 
Ebm7  | Ab7 | Db6  | Db6       | 
Dm7   | G7  | Cm7  | Dm7 G7   :| 
Cm7   | Cm7 | 

Øvelse: Blue Bossa med shell-akkorder

I jazz er spørsmålet om en akkord er en dominant-akkord (stor ters og liten septim: 3+b7), en mollakkorobject width=d (liten ters og liten septim: b3+b7)logo.file=http://wwmoview.elgitar.com/images/flowplaylogo.png, eller om det er en dur-akkord (stort ters men ikke liten septim : 3, men ikke b7).

Det er da de tre akkordtypene som utgjør den harmoniske grunnstrukturen i jazz. Og innenfor den rammen, er det helt fritt, du kan bruke akkurat hva du finner at måtte passe av omvendinger, altereringer og ekstensjoner.

Slik er da akkorden Db6 subsituerbar med en hvilken som helst annen Db-dur-akkofs=1rd. Så vi kan da bytte ut den slik at vi bare forholder oss til om en akkord er dur, dominant og moll, slik at enten er en akkord en maj7-akkord, eller en m7-akkord eller en 7-akkord. I Jazz skrives ofte maj som ma, moll som mi

 Cmi7   Cmi7  Fmi7  Fmi7  Dmi7   G7   Cmi7  Cmi7 
|-----|-----|-----|-----|-----|-----|-----|-----| 
|-----|-----|-----|-----|--6--|-----|-----|-----| 
|--8--|--8--|--8--|--8--|--5--|--4--|--3--|--3--| 
|--8--|--8--|--6--|--6--|-----|--3--|--1--|--1--| 
|-----|-----|--8--|--8--|--5--|-----|--3--|--3--| 
|--8--|--8--|-----|-----|-----|--3--|-----|-----| 
 
  Ebm7  Ab7  Dbma7 Dbma7 Dmi7   G7   Cmi7   Dmi7  G7 
|-----|-----|-----|-----|-----|-----|-----|----------| 
|--4--|-----|--6--|--6--|--6--|-----|--4--|--6-------| 
|-----|--5--|--5--|--5--|--5--|--4--|--3--|--5----4--| 
|--4--|--4--|-----|-----|-----|--3--|-----|-------3--| 
|-----|-----|--4--|--4--|--5--|-----|--3--|--5-------| 
|-----|--4--|-----|-----|-----|--3--|-----|-------3--| 
 
 
 Cmi7   Cmi7  Fmi7  Fmi7  Dmi7   G7   Cmi7  Cmi7 
|-----|-----|-----|-----|-----|-----|-----|-----| 
|-----|-----|-----|-----|--6--|-----|-----|-----| 
|--8--|--8--|--8--|--8--|--5--|--4--|--3--|--3--| 
|--8--|--8--|--6--|--6--|-----|--3--|--1--|--1--| 
|-----|-----|--8--|--8--|--5--|-----|--3--|--3--| 
|--8--|--8--|-----|-----|-----|--3--|-----|-----| 
 
 
 Ebmi7  Ab7   Dbma7 Dbma7 Dmi7  G7    Cmi7  Dmi7  G7 
|-----|-----|-----|-----|-----|-----|-----|----------| 
|--4--|-----|--6--|--6--|--6--|-----|--4--|--6-------| 
|-----|--5--|--5--|--5--|--5--|--4--|--3--|--5----4--| 
|--4--|--4--|-----|-----|-----|--3--|-----|-------3--| 
|-----|-----|--4--|--4--|--5--|-----|--3--|--5-------| 
|-----|--4--|-----|-----|-----|--3--|-----|-------3--| 

Du kan også skrive det enda enklere ved å droppe grunntonen - (når andre spiller bass, er det da også påkrevet).

 Cmi7   Cmi7  Fmi7  Fmi7  Dmi7   G7   Cmi7  Cmi7 
|-----|-----|-----|-----|-----|-----|-----|-----| 
|-----|-----|-----|-----|--6--|-----|-----|-----| 
|--8--|--8--|--8--|--8--|--5--|--4--|--3--|--3--| 
|--8--|--8--|--6--|--6--|-----|--3--|--1--|--1--| 
|-----|-----|-----|-----|-----|-----|-----|-----| 
|-----|-----|-----|-----|-----|-----|-----|-----| 
 
  Ebm7  Ab7  Dbma7 Dbma7 Dmi7   G7   Cmi7   Dmi7  G7 
|-----|-----|-----|-----|-----|-----|-----|----------| 
|--4--|-----|--6--|--6--|--6--|-----|--4--|--6-------| 
|-----|--5--|--5--|--5--|--5--|--4--|--3--|--5----4--| 
|--4--|--4--|-----|-----|-----|--3--|-----|-------3--| 
|-----|-----|-----|-----|-----|-----|-----|----------| 
|-----|-----|-----|-----|-----|-----|-----|----------| 
 
 
 Cmi7   Cmi7  Fmi7  Fmi7  Dmi7   G7   Cmi7  Cmi7 
|-----|-----|-----|-----|-----|-----|-----|-----| 
|-----|-----|-----|-----|--6--|-----|-----|-----| 
|--8--|--8--|--8--|--8--|--5--|--4--|--3--|--3--| 
|--8--|--8--|--6--|--6--|-----|--3--|--1--|--1--| 
|-----|-----|-----|-----|-----|-----|-----|-----| 
|-----|-----|-----|-----|-----|-----|-----|-----| 
 
 
 Ebmi7  Ab7   Dbma7 Dbma7 Dmi7  G7    Cmi7  Dmi7  G7 
|-----|-----|-----|-----|-----|-----|-----|----------| 
|--4--|-----|--6--|--6--|--6--|-----|--4--|--6-------| 
|-----|--5--|--5--|--5--|--5--|--4--|--3--|--5----4--| 
|--4--|--4--|-----|-----|-----|--3--|-----|-------3--| 
|-----|-----|-----|-----|-----|-----|-----|----------| 
|-----|-----|-----|-----|-----|-----|-----|----------| 

Her er et MIDI-komp fra Band-in-a-Box for øvelsen.
Blue Bossa (midi fil)

Her er det kansje arrangert med litt for mye akkorder etter noens smak. Merk at du ikke behøver å legge akkorder på hver eneste meloditonene. Men altså. Her er en leksjon som illustrerer hvordan man bruker altereringer og ekstensjoner, samt ulike omvendinger av akkorder (pluss utelatelse av toner) for å få det slik at , akkordens lyseste tone treffer meloditonen.

Leksjonen er med den tyske jazzgitaristen Wolfgang Kulawik i Wes Montgomerys stil:

Se flere Blue Bossa - jazzgitar-videoer.

Mer om Kulawik: Se hans hjemmeside - play-jazz.de, Myspace - jazzyguitar og Youtube - jamessir100

I tillegg til disse akkordene har du også halvforminskede og forminskede akkorder. Først de halvforminskede.

 Intervaller:   1 - b3 - b5 - b7 
 Eksempelnoter: G - Bb - Db - F 
 Steg:           1½   1½    2            
    x   x       x    x       xx  
    ||||||       ||||||       |||||| 
    ||||0|    10 |G|0||     5 ||G||| 
  3 G|00||       ||0|0|       |||000 
    ||||||       ||||||       |||||| 
    2 341         
 
 x = dempet streng; G = grunntone 

Eksempel på bruk i progresjon: ii-V-I i F-moll: Gm7b5 | C7 | FmMaj7

Gm7b5 på gripebrettet

G er her grunntonen.

          
x||F-|--|G-|--|--|Bb|--|--|Db|--|--|...    
x||--|Db|--|--|--|F-|--|G-|--|--|Bb|... 
G||--|--|Bb|--|--|Db|--|--|--|F-|--|G... 
x||--|--|F-|--|G-|--|--|Bb|--|--|Db|... 
x||Bb|--|--|Db|--|--|--|F-|--|G-|--|... 
x||F-|--|G-|--|--|Bb|--|--|Db|--|--|... 

Besifring: Cdim7, Cº7, Cº

    Cº        Cº         Cº 
  x         x 
  ||O|C|  2 |||O||     ||O|G| 
  |||O|O    |C||||     O||O|| 
  ||||||    ||O|O|     |||||| 
  ||||||    ||||||     |||||| 
 
    Cº        Cº         Cº 
  x         x 
4 ||O|O|  5 |||G||   4 ||O|O| 
  |||G|O    |O||||     O||G|| 
  ||||||    ||O|O|     |||||| 
  ||||||    ||||||     |||||| 
 
    Cº        Cº         Cº 
  x         x 
7 ||O|O|  8 |||O||   7 ||O|O| 
  |||O|G    |O||||     G||O|| 
  ||||||    ||G|O|     |||||| 
  ||||||    ||||||     |||||| 
 
    Cº        Cº         Cº 
  x         x 
10||G|O|  11|||O||   10||G|O| 
  |||O|O    |O||||     O||O|| 
  ||||||    ||O|G|     |||||| 
  ||||||    ||||||     |||||| 
   
  x = dempet streng; G = grunntone 

C dim7 på gripebrettet

Noter:        C    D#    F#    A 
Steg:           1½    1½    1½ 
Intervaller:  1    b3    b5    6 
. 
0        3     5     7     9        12       15    17    19    21       24  
                                                                            
x||--|F#|--|--|A-|--|--|C-|--|--|D#|--|--|F#|--|--|A-|--|--|C-|--|--|D#|--| 
x||C-|--|--|D#|--|--|F#|--|--|A-|--|--|C-|--|--|D#|--|--|F#|--|--|A-|--|--| 
x||--|A-|--|--|C-|--|--|D#|--|--|F#|--|--|A-|--|--|C-|--|--|D#|--|--|F#|--| 
x||D#|--|--|F#|--|--|A-|--|--|C-|--|--|D#|--|--|F#|--|--|A-|--|--|C-|--|--| 
A||--|--|C-|--|--|D#|--|--|F#|--|--|A-|--|--|C-|--|--|D#|--|--|F#|--|--|A-| 
x||--|F#|--|--|A-|--|--|C-|--|--|D#|--|--|F#|--|--|A-|--|--|C-|--|--|D#|--| 

Omvendinger av G7dim
Alle vanlige inversjoner av akkorden Gdim7 i drop2-, drop3- og drop2&4-akkordbygging eller voicing.

Beskrivelse: «På jazzgitaren kan mange av de gode akkordene hentes fra elemenære akkordformer som er lett modifisert. I denne leksjonen skal vi se på F-akkorden og se hvordan vi kan hente mange interessante jazz-akkorder fra den.» Last ned den fulle leksjonen (PDF-dokument) til denne leksjonen fra den amerikanske jazzgitaristen Bob Patterson. For mer om han, så hans Youtube-side med brukernavnet jazzguitardotcom. Se også hans Myspace-side bobpattersonjazz. For flere jazz-gitar-leksjoner fra Bob Patterson, se hans gamle nettsted: jazzguitar.com. Bob Patterson siste album Nuances.

Forholdet mellom jazz-akkorder og skalaer

Jazz Scales by Marc Sabatella