Blueskomp

Et blueskomp er en akkordprogresjon der akkordene følger skjemaet I-IV-V1), for eksempel E-A-H, eller E7-A7-H7.

Takt 1 2 3 4 5 6 7 8 9 10 11 12
Akkordtall I IV I I IV IV I I V IV I V
Blues i E-dur E7 A7 E7 E7 A7 A7 E7 E7 H7 A7 E7 H7 :

Skjemaet er da altså

 Blues-progresjon                Eller mer presist 
 | I  | IV | I  | I  |           | I7  | IV7 | I7  | I7  | 
 | IV | IV | I  | I  |           | IV7 | IV7 | I7  | I7  | 
 | V  | IV | I  | V :|           | V7  | IV7 | I7  | V7 :| 
 Spilles også slik 
 | I7  |  I7 | I7  | I7  | 
 | IV7 | IV7 | I7  | I7  | 
 | V7  | IV7 | I7  | V7 :| 

Backing-track for 12-takters sakte blues i Hb. Det tolv taktene spilles tre ganger. Så er det en slutt på to takter med akkorden Hb7.

Spill av og tell (1-og-2-og-3-og-4) følg med på hvilke akkord (navn og romertall) som kommer i hver takt.

For å øve trykk på knappen S på mp3-spilleren nedenfor, for å spille kontinuerlig.

I tabulaturet nedenfor er akkordene forenklet slik at du kun spiller tersene (3) og septimene (b7) fra de tre akkordene Hb7, Eb7 og F7. Grunntonen og kvinten (5) er sløyfet. Legg merke til at avstanden mellom tersen og septimen er en b5 (tritonus), og se hva slags mønster disse tonene danner i bildet nedenfor.

Ved komping spiller du gjerne sammen med en bassgitarist, som sørger for å spille grunntonen. Så det er overflødig at også du gjør.

Det lønner seg å begynne så enkelt som mulig. Ikke bare fordi det er lett å spille, men også fordi ved å fokusere på det vesentlige ved bluesen, får du det lettere inn i fingre og ører. En annen fordel med å forenkle akkordene på denne måten er at ikke bare ungår du å få oppgitte blikk fra bassgitaristen når du spiller basstonene, men du får også to frie fingre for å legge til tilleggstoner. Mer om det under Dominante akkorder.

     I7              IV7             I7             I7          
     Hb7             Eb7             Hb7            Hb7         
  |--------------|--------------|--------------|--------------| 
  |--------------|--------------|--------------|--------------| 
  |--7--7--7--7--|--6--6--6--6--|--7--7--7--7--|--7--7--7--7--| 
  |--6--6--6--6--|--5--5--5--5--|--6--6--6--6--|--6--6--6--6--| 
  |--------------|--------------|--------------|--------------| 
  |--------------|--------------|--------------|--------------| 
                                                                
     IV7             IV7             I7             I7          
     Eb7             Eb7             Hb7            Hb7         
  |--------------|--------------|--------------|--------------| 
  |--------------|--------------|--------------|--------------| 
  |--6--6--6--6--|--6--6--6--6--|--7--7--7--7--|--7--7--7--7--| 
  |--5--5--5--5--|--5--5--5--5--|--6--6--6--6--|--6--6--6--6--| 
  |--------------|--------------|--------------|--------------| 
  |--------------|--------------|--------------|--------------| 
                                                                
     V7              IV7             I7             V7          
     F7              Eb7             Hb7            F7          
  |--------------|--------------|--------------|--------------| 
  |--------------|--------------|--------------|--------------| 
  |--8--8--8--8--|--6--6--6--6--|--7--7--7--7--|--8--8--8--8--| 
  |--7--7--7--7--|--5--5--5--5--|--6--6--6--6--|--7--7--7--7--| 
  |--------------|--------------|--------------|--------------| 
  |--------------|--------------|--------------|--------------| 

Telleøvelse

          I7                  IV7                 I7                  I7 
|1-og-2-og-3-og-4-og|1-og-2-og-3-og-4-og|1-og-2-og-3-og-4-og|1-og-2-og-3-og-4-og| 
 
          IV7                 IV7                 I7                  I7 
|1-og-2-og-3-og-4-og|1-og-2-og-3-og-4-og|1-og-2-og-3-og-4-og|1-og-2-og-3-og-4-og| 
 
          V7                  IV7                 I7                  V7 
|1-og-2-og-3-og-4-og|1-og-2-og-3-og-4-og|1-og-2-og-3-og-4-og|1-og-2-og-3-og-4-og| 

Følg med på hvilke akkord du spiller når, til du til enhver tid er klar over både navn på akkord og romertall.

Prøv å variere rytme og toner, og skli inn for akkorden over og under. Prøv å etterligne hvordan pianoet spiller i backing tracket. Bruk illustrasjoen nedenfor til å finne andre kombinasjoner av intervallet 3-b7 (eller omvendt b7-3) for hver enkelt akkord:

     I7              I7              I7             I7          
     Hb7             Eb7             Hb7            Hb7 
  
  |--------------|--------------|--------------|--9\10---10---| 
  |--------9-----|--------8-----|--------------|--8\9----9----| 
  |--7-----7-----|--6-----6-----|--7--7--7--7--|--------------| 
  |--6-----------|--5-----------|--6--6--6--6--|--------------| 
  |--------------|--------------|--------------|--------------| 
  |--------------|--------------|--------------|--------------| 

Etterhvert kan du finne andre steder og spille de samme intervallen, legge til grunntone (1) og kvint (5), og du kan også bruke leke deg med å spille arpeggioer og å lage små solomelodier på en par-tre toner fra akkordtoner. Det siste er veldig nyttig for den som ønsker å lære seg å spille solo. Hold deg kun til akkordtonene i først omgang, og konsentrer deg om tonene 3 og b7 for hver akkord.

Eksempler på variasjon: Freddie Green- og Charleston-rytme Her er et par eksempler på hvordan du kan variere rytmen. Først en meget viktig synkopert rytme som forbindes med Freddie Green med fire anslag pr. takt («four to the bar»). Prøv å etterligne det.


Et annet vanlig rytmemønster er Charlestonrytme.

Der slår her an strengene på 1 nedslag og på «2 og»

          I7                  IV7                 I7                  I7 
|1-og-2-og-3-og-4-og|1-og-2-og-3-og-4-og|1-og-2-og-3-og-4-og|1-og-2-og-3-og-4-og| 
 |       |           |       |           |       |           |       |       

Her er de fulle akkorder som de forenklede akkordene over er hentet fra:

   I7              IV7             I7             I7           
   Hb7             Eb7             Hb7            Hb7          
|--------------|--------------|--------------|--------------|  
|--6--6--6--6--|--6--6--6--6--|--6--6--6--6--|--6--6--6--6--|  
|--7--7--7--7--|--6--6--6--6--|--7--7--7--7--|--7--7--7--7--|  
|--6--6--6--6--|--5--5--5--5--|--6--6--6--6--|--6--6--6--6--|  
|--------------|--6--6--6--6--|--------------|--------------|  
|--6--6--6--6--|--------------|--6--6--6--6--|--6--6--6--6--|  
                                                               
   IV7             IV7             I7             I7           
   Eb7             Eb7             Hb7            Hb7          
|--------------|--------------|--------------|--------------|  
|--6--6--6--6--|--6--6--6--6--|--6--6--6--6--|--6--6--6--6--|  
|--6--6--6--6--|--6--6--6--6--|--7--7--7--7--|--7--7--7--7--|  
|--5--5--5--5--|--5--5--5--5--|--6--6--6--6--|--6--6--6--6--|  
|--6--6--6--6--|--6--6--6--6--|--------------|--------------|  
|--------------|--------------|--6--6--6--6--|--6--6--6--6--|  
                                                               
   V7              IV7             I7             V7           
   F7              Eb7             Hb7            F7#5         
|--------------|--------------|--------------|--------------|  
|--8--8--8--8--|--6--6--6--6--|--6--6--6--6--|--9--9--9--9--|  
|--8--8--8--8--|--6--6--6--6--|--7--7--7--7--|--8--8--8--8--|  
|--7--7--7--7--|--5--5--5--5--|--6--6--6--6--|--7--7--7--7--|  
|--8--8--8--8--|--6--6--6--6--|--------------|--8--8--8--8--|  
|--------------|--------------|--6--6--6--6--|--------------|  

Variasjon med akkorder:

                       
   I7              IV7           
   C9  Hb9        F9  Eb9        
|--------------|---------------|  
|--8---6-------|--13--11-------|  
|--7---5-------|--12--10-------|  
|--8---6-------|--13--11-------|  
|--7---5-------|--12--10-------|  
|--------------|---------------|...osv 
 Disse akkordene er uten grunntone (den spilles av bassen) 

Enda flere septimakkorder. Merk at disse er flyttbare (hvilket intervall hver note har står i parantes). Merk: Intervallene #11 og b5 har samme note (E) og #5 og b13 er her Gb.

   Hb7     Hb9      Hb9      Hb7(b5)   Hb7(#5)  Hb13   Hb13    Hb11    Hb7(b9)  
|------------------------------------------------------8-(9)-------------------| 
|--6-(5)---6-(5)----6-(5)----5-(5)----7-(#5)----8-(13)-8-(13)--4-(11)--3-(3)---| 
|--7-(3)---5-(9)----5-(9)----5-(9)----7-(3)-----7-(3)--7-(3)---5-(9)---4-(b9)--| 
|--6-(b7)--6-(b7)---6-(b7)---6-(b7)---6-(b7)----6-(b7)-6-(b7)--6-(b7)--6-(b7)--| 
|-------------------5-(3)------------------------------------------------------| 
|--6-(1)---6-(1)-------------6-(1)----6-(1)-----6-(1)--6-(1)---6-(1)---6-(1)---| 
   Hb7     Hb9     Hb13    Hb13sus4  Hb7(b5)  Hb7(#5)  Hb13    Hb11    Hb7(b9)  
|--6-(1)---6-(1)---8-(9)----8-(9)----6-(1)---6-(1)-----6-(1)---6-(1)---6-(1)---| 
|--6-(5)---6-(5)---8-(13)---8-(13)---5-(5)---7-(#5)----8-(13)--4-(11)--3-(3)---| 
|--7-(3)---5-(9)---7-(3)----8-(4)----5-(9)---7-(3)-----7-(3)---5-(9)---4-(b9)--| 
|--6-(b7)--6-(b7)--6-(b7)---6-(b7)---6-(b7)--6-(b7)----6-(b7)--6-(b7)--6-(b7)--| 
|------------------------------------------------------------------------------| 
|------------------------------------------------------------------------------| 

Her er noen videoleksjoner i standard 12-taktsblues, hopp over den første videoen for å komme rett til gitarleksjonene:

Her er et eksempel på de en 12-takst blues med svingrytme, såkalt blues shuffle. Det vil si at du legger hovedvekten på første note i hver takt. Hver takt har her to noter. Du deler liksom opp hvert taktslag i tre like store deler (trioler), og lar den første av åttendelsnotene få to av dem.

   E7                  A7                  E7                  E7                   
   E5  E6              A5  A6                                                       
E |-------------------|-------------------|-------------------|-------------------| 
H |-------------------|-------------------|-------------------|-------------------| 
G |-------------------|-------------------|-------------------|-------------------| 
D |-------------------|2--2-4--4-2--2-4--4|-------------------|-------------------| 
A |2--2-4--4-2--2-4--4|0--0-0--0-0--0-0--0|2--2-4--4-2--2-4--4|2--2-4--4-2--2-4--4| 
E |0--0-0--0-0--0-0--0|-------------------|0--0-0--0-0--0-0--0|0--0-0--0-0--0-0--0| 
                                                                                  | 
    A7                 A7                  E7                  E7                 | 
E |-------------------|-------------------|-------------------|-------------------| 
H |-------------------|-------------------|-------------------|-------------------| 
G |-------------------|-------------------|-------------------|-------------------| 
D |2--2-4--4-2--2-4--4|2--2-4--4-2--2-4--4|-------------------|-------------------| 
A |0--0-0--0-0--0-0--0|0--0-0--0-0--0-0--0|2--2-4--4-2--2-4--4|2--2-4--4-2--2-4--4| 
E |-------------------|-------------------|0--0-0--0-0--0-0--0|0--0-0--0-0--0-0--0| 
                                                                                  | 
   H7                  A7                  E7                  H7                 | 
E |-------------------|-------------------|-------------------|-------------------| 
H |-------------------|-------------------|-------------------|-------------------| 
G |-------------------|-------------------|-------------------|-------------------| 
D |4--4-6--6-4--4-6--6|2--2-4--4-2--2-4--4|-------------------|4--4-6--6-4--4-6--6| 
A |2--2-2--2-2--2-2--2|0--0-0--0-0--0-0--0|2--2-4--4-2--2-4--4|2--2-2--2-2--2-2--2| 
E |-------------------|-------------------|0--0-0--0-0--0-0--0|-------------------| 
                                                                                    
                                                                                    
                                                                                    

En kansje enklere måte å spille det samme på med omvending av E5 og E6

                                                                                    
E |-------------------|-------------------|-------------------|-------------------| 
H |-------------------|-------------------|-------------------|-------------------| 
G |-------------------|2--2-2--2-2--2-2--2|-------------------|-------------------| 
D |2--2-2--2-2--2-2--2|2--2-4--4-2--2-4--4|2--2-2--2-2--2-2--2|2--2-2--2-2--2-2--2| 
A |2--2-4--4-2--2-4--4|-------------------|2--2-4--4-2--2-4--4|2--2-4--4-2--2-4--4| 
E |---------------------------------------|-------------------|-------------------| 
                                                                                    
E |-------------------|-------------------|-------------------|-------------------| 
H |-------------------|-------------------|-------------------|-------------------| 
G |2--2-2--2-2--2-2--2|2--2-2--2-2--2-2--2|-------------------|-------------------| 
D |2--2-4--4-2--2-4--4|2--2-4--4-2--2-4--4|2--2-2--2-2--2-2--2|2--2-2--2-2--2-2--2| 
A |-------------------|-------------------|2--2-4--4-2--2-4--4|2--2-4--4-2--2-4--4| 
E |-------------------|-------------------|-------------------|-------------------| 
                                                                                    
E |-------------------|-------------------|-------------------|-------------------| 
H |-------------------|-------------------|-------------------|-------------------| 
G |4--4-4--4-4--4-4--4|2--2-2--2-2--2-2--2|-------------------|4--4-4--4-4--4-4--4| 
D |4--4-6--6-4--4-6--6|2--2-4--4-2--2-4--4|2--2-2--2-2--2-2--2|4--4-6--6-4--4-6--6| 
A |-------------------|-------------------|2--2-4--4-2--2-4--4|-------------------| 
E |-------------------|-------------------|-------------------|-------------------| 

Her er enda en måte å spille power chords på, som gjør det lettere å fingre intervallet b7 når du spiller blues:

      G5   G6    G7                C5   C6    C7              D5 
E ||--------------------------|---------------------------|------ 
H ||--------------------------|---------------------------|------ 
G ||---0-----0-----0-----0----|---5-----5-----5-----5-----|---7-- 
D ||---0-----2-----3-----2----|---5-----7-----8-----7-----|---7-- 
A ||--------------------------|---------------------------|------ 
E ||---3---3---3---3---3---3--|---8---8---8---8---8---8---|---10-... 
      C5   C6    C7             
E ||--------------------------| 
H ||---1-----1-----1-----1----| 
G ||---0-----2-----3-----2----| 
D ||--------------------------| 
A ||---3---3---3---3---3---3--| 
E ||--------------------------| 
      F5   F6    F7             
E ||---1-----1-----1-----1----| 
H ||---1-----3-----4-----3----| 
G ||--------------------------| 
D ||---3---3---3---3---3---3--| 
A ||--------------------------| 
E ||--------------------------| 

Andre I-IV-V-akkorder

       I     IV    V 
       G7    C7    D7 
E ||---1-----0-----2---| 
H ||---0-----1-----1---| 
G ||---0-----3-----2---| 
D ||---3-----2-----0---| 
A ||---2-----3---------| 
E ||---3---------------| 
       I     IV    V 
       A5    D5    E5 
E ||-------------------| 
H ||-------------------| 
G ||---------2---------| 
D ||---2-----0---------| 
A ||---0-----------2---| 
E ||---------------0---| 
       I     IV    V     
       A7    D7    E7    
E ||---0-----2-----0---| 
H ||---2-----1-----0---| 
G ||---0-----2-----1---| 
D ||---2-----0-----0---| 
A ||---0-----------2---| 
E ||---------------0---| 
       I     IV    V     
       A7    D7    E7    
E ||---3-----2-----0---| 
H ||---2-----1-----3---| 
G ||---2-----2-----1---| 
D ||---2-----0-----2---| 
A ||---0-----x-----2---| 
E ||---x-----x-----0---| 
       I     IV    V 
       A7    D7    E7 
E ||---0-----5-----7---| 
H ||---2-----7-----9---| 
G ||---0-----5-----7---| 
D ||---2-----7-----9---| 
A ||---0-----5-----7---| 
E ||---x-----x-----0---| 
       I     IV    V 
       E7    A7    H7 
E ||---0-----5-----7---| 
H ||---0-----5-----7---| 
G ||---1-----6-----8---| 
D ||---0-----5-----7---| 
A ||---2-----7-----9---| 
E ||---0-----5-----7---| 
       I     IV    V 
       E7    A7    H7 
E ||---0-----0-----2---| 
H ||---0-----2-----4---| 
G ||---1-----0-----2---| 
D ||---0-----2-----4---| 
A ||---2-----0-----2---| 
E ||---0-----x-----x---| 
       I     IV    V 
       E7    A7    H7 
E ||---7-----5-----7---| 
H ||---9-----5-----7---| 
G ||---7-----6-----8---| 
D ||---9-----5-----7---| 
A ||---7-----7-----9---| 
E ||---x-----5-----7---| 
   A7         D9         A7         A13 A7+5 
E|----------|----------|----------|----------| 
B|-5--------|-5--------|-5--------|-7---6----| 
G|-6--------|-5--------|-6--------|-6---6----| 
D|-5--------|-4--------|-5--------|-5---5----| 
A|----------|-5--------|----------|----------| 
E|-5--------|----------|-5--------|-5---5----| 
 
   D9         A°  C°     A13 Hm7   Dbm7 Cm7 
E|----------|-----5----|----------|----------| 
B|-5--------|-7---4----|-7---7----|-9---8----| 
G|-5--------|-5---5----|-6---7----|-9---8----| 
D|-4--------|-7---4----|-5---7----|-9---8----| 
A|-5--------|-6--------|----------|----------| 
E|----------|----------|-5---7----|-9---8----| 
 
   Hm7        E9         A7  D9     D9  E9  
E|----------|----------|----------|----------|  
B|-7--------|-7--------|-5---5----|-5---7----|  
G|-7--------|-7--------|-6---5----|-6---7----|  
D|-7--------|-6--------|-5---4----|-5---6----|  
A|----------|-7--------|-----5----|-----7----|  
E|-7--------|----------|-5--------|-5--------|  

12-takts blues | Boogie-woogie | Little Wing | Freddie Greeen

1)
Toneart I IV V
H-dur H E F#
E-dur E A H
A-dur A D E
D-dur D G A
G-dur G C D
C-dur C F G
F-dur F Hb C
Hb-dur Hb Eb F