Yngwie Malmsteen / Arpeggios From Hell Tab

 
 
"Arpeggio's From Hell" 
Guitar Lesson on video 
Tabbed by mitch 
ray7788@hotmail.com 
 
This is my first submittal and I hope this is useful to guitarists that 
appreciate the technical skill of Yngwie Malmsteen. I believe this piece 
is very useful in teaching phrases and various techniques. There are 
subtle nuances that I haven't expressed in this tab, but the notes are as 
close as I could get them. Please feel free to give me feedback. 
 
Enjoy... 
 
 
b=bend 
tr=trill 
h=hammer on 
p=pull off 
s=slide 
~=vibrato 
|=separate phrase/section 
 
 
***************************MAIN RIFF************************************** 
    Em 
E||-------------------------------------------------7---7-12p0-0-15-14-12-| 
B||-------------------------------------------8---8---8-------------------| 
G||-------------------------------------9---9---9-------------------------| 
D||-------------------------5---5-9-5-9---9-------------------------------| 
A||-------------------7---7---7-------------------------------------------| 
E||--0--0-3-0-3-7-3-7---7-------------------------------------------------| 
 
 
-15-14-12-19-15-----------------------------------------------------| 
----------------17----17--------------------------------------------| 
-------------------16----16----16-----------------------------------| 
----------------------------17----17-14-17-14----14-----------------| 
----------------------------------------------14----14-10-14-10-----| 
----------------------------------------------------------------12~-| 
 
 
Am 
-------------------------------------------12----12-15b17~--| 
----------------------------------13----13----13------------| 
-------------------------14----14----14---------------------| 
-------10----10-14-10-14----14------------------------------| 
-12~12----12------------------------------------------------| 
------------------------------------------------------------| 
 
 
G Diminished 
 
-18-15----15-------------------------------------------------------------| 
-------17----17----17----------------------------------------------------| 
----------------18----18-15-18-15----15----------------------------------| 
----------------------------------17----17-14-17-14----14----------------| 
----------------------------------------------------16----16-13-16-13----| 
----------------------------------------------------------------------15-| 
 
 
A Diminished 
-17-14----14-------------------------------------------------------------| 
-------16----16----16----------------------------------------------------| 
----------------17----17-14-17-14----14----------------------------------| 
----------------------------------16----16-13-16-13----13----------------| 
----------------------------------------------------15----15-12-15-12----| 
----------------------------------------------------------------------14-| 
 
 
E harmonic minor lick 
 
-15-12----15s14-11----12-15-12----15s14-11----12-15-12----15s14-11-| 
-------12----------12----------12----------12----------12----------| 
-------------------------------------------------------------------| 
-------------------------------------------------------------------| 
-------------------------------------------------------------------| 
-------------------------------------------------------------------| 
 
 
---12-15-12----12-15-14-| 
12----------12----------| 
------------------------| 
------------------------| 
------------------------| 
------------------------| 
 
 
E Harmonic Minor 
-15-14-12s11-------------------------------------------------| 
-------------13-12-10----------------------------------------| 
----------------------12-11-9s8------------------------------| 
--------------------------------10-9-7-----------------------| 
---------------------------------------10-9-7s6--------------| 
------------------------------------------------8-7-5-3s2s0--| 
 
*********************************END OF MAIN RIFF ************************ 
 
Do the MAIN RIFF 2x 
 
SOLO                                   Diminished run 
----------12-14b15b14-12----------|-21p18-21p18s15----| 
---15b17~----------------17b19tr~-|----------------17-| 
----------------------------------|-------------------| 
----------------------------------|-------------------| 
----------------------------------|-------------------| 
----------------------------------|-------------------| 
 
 
Diminished run (cont.) 
18p15s12----15p12s9----|--14s15s14-12----14-12-------12----------| 
---------14---------11-|--------------15-------15-14---15-14-12--| 
-----------------------|-----------------------------------------| 
-----------------------|-----------------------------------------| 
-----------------------|-----------------------------------------| 
-----------------------|-----------------------------------------| 
 
 
24's 
-------12-----------|--------12-----------|---------12-----------| 
-14-15----15-14-12--|--14-15----15-14-12--|---14-15----15-14-12--| 
--------------------|---------------------|----------------------| 
--------------------|---------------------|----------------------| 
--------------------|---------------------|----------------------| 
--------------------|---------------------|----------------------| 
 
 
32's 
--------12-14-15-14-12----|-14-12-------12-------------| 
--14-15----------------15-|-------15-14----15-14-12-11-| 
--------------------------|----------------------------| 
--------------------------|----------------------------| 
--------------------------|----------------------------| 
--------------------------|----------------------------| 
 
 
Phrase 
 
--14b15b14-15-14-12----------|--14b15b14-15-14-12----------| 
--------------------15-14-12-|--------------------15-14-12-| 
-----------------------------|-----------------------------| 
-----------------------------|-----------------------------| 
-----------------------------|-----------------------------| 
-----------------------------|-----------------------------| 
 
 
-14b15b14s21~-18~-18-| 
---------------------| 
---------------------| 
---------------------| 
---------------------| 
---------------------| 
 
 
Phrase 
-18-15-18-19-18-15-21-|-15-18-19-18-15-21-|-15-18-19-18-15-21-| 
----------------------|-------------------|-------------------| 
----------------------|-------------------|-------------------| 
----------------------|-------------------|-------------------| 
----------------------|-------------------|-------------------| 
----------------------|-------------------|-------------------| 
 
 
                 			Variation of Pattern 
-15-19-21-15-18-19-18-15-21-|-15-18-19-18-15-19-21-22b24b21-| 
----------------------------|-------------------------------| 
----------------------------|-------------------------------| 
----------------------------|-------------------------------| 
----------------------------|-------------------------------| 
----------------------------|-------------------------------| 
 
 
Diminished Pattern 
-21-18----18-15----15-12----14b15b14-15-14-12----14-12-------12-------| 
-------20-------17-------14-------------------15-------15-14----15b17-| 
----------------------------------------------------------------------| 
----------------------------------------------------------------------| 
----------------------------------------------------------------------| 
----------------------------------------------------------------------| 
 
 
B harmonic minor ascending 
-------------------------------------12-14-| 
----------------------------12-14-15-------| 
----------------------12-15----------------| 
-------------12-14-16----------------------| 
-14-13-14-16-------------------------------| 
-------------------------------------------| 
 
 
B harmonic minor descending 
-15-14-12----------------------------------| 
----------15-14-12-------------------------| 
-------------------15-12-------------------| 
-------------------------16-14-12----------| 
----------------------------------16-14-13-| 
-------------------------------------------| 
 
 
Am 
--------------------12-17-17-16-17~|-19-17-15----------17-15-13----------| 
-----------------13----------------|----------18-17-15----------17-15-13-| 
-------------14--------------------|-------------------------------------| 
----------14-----------------------|-------------------------------------| 
-12-12-15--------------------------|-------------------------------------| 
-----------------------------------|-------------------------------------| 
 
 
15-13~12~---------13~| 
---------15-13-12~---| 
---------------------| 
---------------------| 
---------------------| 
---------------------| 
 
A harmonic minor with F pedal tone   Eb Dim pattern    D Dim pattern 
--12-13-10-13-8-13----13----13------|-11-8---------8-|-10-7--------7-10-| 
-------------------12----10----9s10-|------10---10---|------9----9------| 
------------------------------------|---------11-----|--------10--------| 
------------------------------------|----------------|------------------| 
------------------------------------|----------------|------------------| 
------------------------------------|----------------|------------------| 
 
Phrase 
-17-15-13-17-15-13----------15-13-12----------3-12-10-13-12-10----------| 
-------------------17-15-13----------15-13-12------------------13-12-10-| 
------------------------------------------------------------------------| 
------------------------------------------------------------------------| 
------------------------------------------------------------------------| 
------------------------------------------------------------------------| 
 
 
Lick 
-10-8-7-5-8-7-5---7-5-----5-----5----------5----------------------------| 
----------------8-----8-6---8-6---8-6-5--8---8-6-5-6--------------------| 
-----------------------------------------------------7b9b7-5b7~-5b7tr~--| 
------------------------------------------------------------------------| 
------------------------------------------------------------------------| 
------------------------------------------------------------------------| 
 
 
Am phrase ascending 
-----------------------------------------------------10-12-10----------12~-| 
--------------------------------------------10-12-13----------13-12-10-----| 
---------7----------------9---------9-10-12--------------------------------| 
-7-9-7-9---10-9-7-9-10-12---9-10-12----------------------------------------| 
---------------------------------------------------------------------------| 
---------------------------------------------------------------------------| 
 
 
Diminished Pattern 
 
-17-14----------14-17-14-17-14----------14-17-14-| 
-------16----16----------------16----16----------| 
----------17----------------------17-------------| 
-------------------------------------------------| 
-------------------------------------------------| 
-------------------------------------------------| 
 
Diminished Pattern (cont.) 
-16-13----------13-16-13-16-13----------13-16-13| 
-------15----15----------------15----15---------| 
----------16----------------------16------------| 
------------------------------------------------| 
------------------------------------------------| 
------------------------------------------------| 
 
 
Diminished Pattern (cont.) 
-14-11----------11-14-11-14-11----------11-14-11-| 
-------13----13----------------13----13----------| 
----------14----------------------14-------------| 
-------------------------------------------------| 
-------------------------------------------------| 
-------------------------------------------------| 
 
 
Diminished Pattern (cont.) 
-13-10----------10-13-10-13-12~-| 
-------12----12-----------------| 
----------13--------------------| 
--------------------------------| 
--------------------------------| 
--------------------------------| 
 
 
A harmonic minor riff 
----------10-12-13-12-10----------------|------------------------------| 
-10-12-13----------------13-12-10-------|-10-9-10-9-10-9---------------| 
----------------------------------12-10-|----------------10-9-------9~-| 
----------------------------------------|----------------------12-10---| 
----------------------------------------|------------------------------| 
----------------------------------------|------------------------------| 
 
 
Do the MAIN RIFF 2x finish 

Se forøvrig artikkelen Arpeggio

  • arpeggio_s_from_hell.txt
  • Sist endret: 8 år siden
  • (ekstern redigering)